Jump to content

tab. chitarra di "spider" S.O.A.D


Guest jimmy
 Share

Recommended Posts

Guest jimmy

se c'è qualche appassionato del gruppo musicale di L.A. e magari sa anche suonare la chitarra, spero che apprezzi la tablatura di spider dei sistem of a down.

 

P.S.se qualche interessato non è capace a leggere le tablature ed è interessato alla canzone mi avveta. ciao

 

SPIDERS

sistem of a down

Time: 0:00

 

|----------------------- |

|----------------------- |

|----------------------- |

|----------------------- |

|----7---7---5---5---5-5 |

|--0---0---0---0---0---- (--- Play This 2 Times ---) |

|

|----------------------------------------------- |

|----------------------------------------------- |

|----------------------------------------------- |

|----------------------------------------------- |

|----8---7---10---8---7/8----7---7---5---5---5-5 |

|--0---0---0----0---0-----0---0---0---0---0----- |

| PLAY

THIS 3 TIMES!

+++++++++++++++++++++++++++++++++++++++++++++++++++++++++++++++++++

 

Time: 0:46

 

|----

|----

|----

|--10

|--10

|--10 listen to song for pattern then

 

|------------------------------------------------

|------------------------------------------------

|----14---12---15---14---12/14---12---12/14--10--

|-----x----x----x----x----x--x----x----x--x---x--

|----12---10---13---12---10/12---10---10/12---8--

|--0----0----0----0----0-------0----0------------

 

 

Time: 1:00

 

|----------

|----------

|----------

|--10--8-7-

|--10--8-7-

|--10--8-7- listen to song for pattern then

 

 

|-----------------------

|-----------------------

|-----------------------

|-----------------------

|----7---7---5---5---5-5

|--0---0---0---0---0---- play 4x then

 

|-----------------------------------------------

|-----------------------------------------------

|-----------------------------------------------

|-----------------------------------------------

|----8---7---10---8---7/8----7---7---5---5---5-5

|--0---0---0----0---0-----0---0---0---0---0-----

 

 

Time: 1:28

 

|-----------------------

|-----------------------

|-----------------------

|-----------------------

|----7---7---5---5---5-5

|--0---0---0---0---0---- play 2x

 

|-----------------------------------------------

|-----------------------------------------------

|-----------------------------------------------

|-----------------------------------------------

|----8---7---10---8---7/8----7---7---5---5---5-5

|--0---0---0----0---0-----0---0---0---0---0-----

 

 

|----

|----

|----

|--10

|--10

|--10 listen to song for pattern

 

Time: 1:50

 

|------------------------------------------------

|------------------------------------------------

|----14---12---15---14---12/14---12---12/14--10--

|-----x----x----x----x----x--x----x----x--x---x--

|----12---10---13---12---10/12---10---10/12---8--

|--0----0----0----0----0-------0----0------------

 

|----------

|----------

|----------

|--10--8-7-

|--10--8-7-

|--10--8-7- listen to song for pattern then

 

|----------

|----------

|--14-15-18

|---x--x--x play 2x

|--12-13-16

|---------- in sixteenth note pattern then

 

|--------------

|--------------

|----19--20--18

|--------------

|--17--18--16-- play 2x

|-------------- listen to song for correct timing

 

Time: 2:30

 

|----

|----

|----

|--10

|--10

|--10 listen to song for pattern

 

|------------------------------------------------

|------------------------------------------------

|----14---12---15---14---12/14---12---12/14--10--

|-----x----x----x----x----x--x----x----x--x---x--

|----12---10---13---12---10/12---10---10/12---8--

|--0----0----0----0----0-------0----0------------

 

|----------

|----------

|----------

|--10--8-7-

|--10--8-7-

|--10--8-7- listen to song for pattern then

 

 

|------------------------------------------------

|------------------------------------------------

|----14---12---15---14---12/14---12---12/14--10--

|-----x----x----x----x----x--x----x----x--x---x--

|----12---10---13---12---10/12---10---10/12---8--

|--0----0----0----0----0-------0----0------------

 

Time: 2:56

 

|----------

|----------

|----------

|--10--8-7-

|--10--8-7-

|--10--8-7- listen to song for pattern then

 

|-----------------------

|-----------------------

|-----------------------

|-----------------------

|----7---7---5---5---5-5

|--0---0---0---0---0---- play 4x

 

Time: 3:18

 

|------------------------------------------

|------------------------------------------

|---10---9---12--10---9/10---9---9/10---7--

|----x---x----x---x---x--x---x---x--x---x--

|----8---7---10---8---7/-8---7---7/-8---5--

|--0---0---0----0---0------0---0----------- listen for pattern on last note

 

|----------------------------------------------

|----------------------------------------------

|----14---12---15---14---12/14---12---12/14--10~~

|-----x----x----x----x----x--x----x----x--x---x

|----12---10---13---12---10/12---10---10/12---8~~

|--0----0----0----0----0-------0----0----------

 

 

 

 

.:IL GURZO [:181] DELLA BASSA:.

Link to comment
Share on other sites

Questo è razzismo musicale!

Tiè, beccatevi la tab per basso allora...

 

Bass Intro;

F|--9-9-7-7-7---9-9-7-7-7---10-9-12-10-9-10-9-9-7-7-7---

C|-0-0-0-0-0-0-0-0-0-0-0-0-0--0-0--0--0----0-0-0-0-0-0--

G|------------------------------------------------------

C|------------------------------------------------------

 

F|--9-9-7-7-7---9-9-7-7-7---10-9-12-10-9-10-9-9-7-7-7---

C|---0-0-0-0-0---0-0-0-0-0----0-0--0--0----0-0-0-0-0-0--

G|------------------------------------------------------

C|-0-----------0-----------0----------------------------

 

F|--9-9-7-7-7---9-9-7-7-7---10-9-12-10-9-10-9-9-7--

C|---0-0-0-0-0---0-0-0-0-0----0-0--0--0----0-0-0---

G|-------------------------------------------------

C|-0-----------0-----------0-----------------------

 

Then it comes in for the "heavy part";

All notes are 10's.

 

F|-------------------------------------------------

C|-------------------------------------------------

G|-------------------------------------------------

C|-101010-101010-10-10101010-1010-1010-1010101010--

 

Into;

F|--10-9-12-10-9-10-9-9-7--

C|----0-0--0--0----0-0-0---

G|-------------------------

C|-0-----------------------

 

F|--------------------------------

C|--------------------------------

G|--------------------------------

C|-101010-1010-10-888-8-77777777--

 

Then onto;

F|--9-9-7-7-7---9-9-7-7-7---9-9-7-7-7--9-9-7-7-7---

C|-0-0-0-0-0-0-0-0-0-0-0-0-0-0-0-0-0-0--0-0-0-0-0--

G|-------------------------------------------------

C|------------------------------------0------------

 

F|--10-9-12-10-9-10-9-9-7-7-7---9-9-7-7-7----

C|----0-0--0--0----0-0-0-0-0-0-0-0-0-0-0-0---

G|-------------------------------------------

C|-0-----------------------------------------

 

F|--9-9-7-7-7---10-9-12-10-9-10-9-9-7-7-7---

C|---0-0-0-0-0----0-0--0--0----0-0-0-0-0-0--

G|------------------------------------------

C|-0-----------0----------------------------

 

Back to this part;

F|-------------------------------------------------

C|-------------------------------------------------

G|-------------------------------------------------

C|-101010-101010-10-10101010-1010-1010-1010101010--

 

 

F|--10-9-12-10-9-10-9-9-7--

C|----0-0--0--0----0-0-0---

G|-------------------------

C|-0-----------------------

 

F|--------------------------------

C|--------------------------------

G|--------------------------------

C|-101010-1010-10-888-8-77777777--

 

Up next is the bridge;

F|------------------------------------

C|------------------------------------

G|-55555-55-55555-55-66666-66-99999-99

C|------------------------------------ x2

 

F|------------------------------------

C|------------------------------------

G|------------------------------------

C|-00000-00-00000-00-11111-11-44444-44 x2

 

Then back to the "heavy" part;

F|-------------------------------------------------

C|-------------------------------------------------

G|-------------------------------------------------

C|-101010-101010-10-10101010-1010-1010-1010101010--

 

F|--10-9-12-10-9-10-9-9-7--

C|----0-0--0--0----0-0-0---

G|-------------------------

C|-0-----------------------

 

F|--------------------------------

C|--------------------------------

G|--------------------------------

C|-101010-1010-10-888-8-77777777--

 

Then finish off the song with;

F|--9-9-7-7-7---9-9-7-7-7---9-9-7-7-7--9-9-7-7-7---

C|---0-0-0-0-0---0-0-0-0-0---0-0-0-0-0--0-0-0-0-0--

G|-------------------------------------------------

C|-0-----------0-----------0----------0------------

 

F|--10-9-12-10-9-10-9-9-7-7-7---

C|----0-0--0--0----0-0-0-0-0-0--

G|------------------------------

C|-0----------------------------

 

F|--10-9-12-10-9-10-9-9-7--

C|-0--0-0--0--0----0-0-0---

G|-------------------------

C|-------------------------

Link to comment
Share on other sites

W i chitarristi!!!

 

Informazione OT: a luglio ci sarà il G3 in Italia!!!

 

Queste le date

 

Jul. 06 - TBA - Milan, ITA

Jul. 07 - Centrale del Tennis - Rome, ITA

Jul. 08 - Villa Pisani - Padova, ITA

 

Ci saranno Joe Satriani, Steve Vai e Robert Fripp.

 

Da non perdere!!![8D][8D][8D]

 

Ps: per chi non lo sapesse il G3 è un concerto dove suonano i migliori chitarristi al mondo

 

*el_Giango*

Link to comment
Share on other sites

Guest jimmy

per chi è interessato e abita nella zona di bergamo sottolineo:

-MUSE: lazzaretto a bergamo il 20 giugno

-SOULFLY: (da confermare) motion unlimited -Zingonia- nda assolutamente da non perdere!!!!!!!!!! (tra l'altro è uscito il nuovo cd) !fight for my soul![:208]

 

.:IL GURZO [:181] DELLA BASSA:.[:266]

Link to comment
Share on other sites

Create an account or sign in to comment

You need to be a member in order to leave a comment

Create an account

Sign up for a new account in our community. It's easy!

Register a new account

Sign in

Already have an account? Sign in here.

Sign In Now
 Share

  • Recently Browsing   0 members

    • No registered users viewing this page.
×
×
  • Create New...

Important Information

By using this site, you agree to our Terms of Use and Privacy Policy.